...

 

, , ,

 

The Beatles It`s Only Love

C Am

E|-------------0-|

B|-1---0-------1-|

G|-------2-0---2-| repeat

D|-------------2-|

A|-------------0-|

E|---------------|

 

C Em Bb F G G7 G+ G

I get high when I see you go by, my oh my

 

(emphasize the following notes while playing the chords,

or pick them):

E|------------------------------------------------------|

B|-1------0---------------------------------------------|

G|------------------3------2------0---------------------|

D|------------------------------------3---1----------0--|

A|------------------------------------------------------|

E|------------------------------------------------------|

 

C Em Bb F G G7 G+ G

When you sigh my my inside just flies, butterflies

F G C Am

Why am I so shy when I`m beside you ?

 

Bb G

It`s only love and that is all

C Am (as in intro)

Why should i feel the way i do?

 

Bb G F G

It`s only love and that is all, but it`s so hard, lovin you

 

Is it right that you and i should fight every night

Just the sight of you makes nighttime bright, very bright

Haven`t I the right to make it up, girl?

 

It`s only love and that is all,

Why should i feel the way i do?

It`s only love and that is all, but it`s so hard, lovin you

F G C Am C Am

Yes it`s so hard, lovin you, lovin you.

    

 
Internet Map 
 
 
 
...
 

Guitar Pro
 
80-  
     
     
     
     
     
RA      
.net     , ,

06.03.2004, 03.04.2014 , ZaG

| | gtp | | | | | | |

. . . .