...

 

, , ,

 

The Beatles Revolution

Intro :

 

E|-5/7-7-7-7-7-7-7-7-7-7-7-7----5/7-7-7-7-7-7-7-7-7-7-7-7-|

B|-5/7-7-7-7-7-7-7-7-7-7-7-7----5/7-7-7-7-7-7-7-7-7-7-7-7-|

G|--------------------------------------------------------|

D|--------------------------------------------------------|

A|--------------------------------------------------------|

E|--------------------------------------------------------|

 

E|-5/7-7-7-7-7-7-7-7-7-7-7-7--------------------------12-|

B|-5/7-7-7-7-7-7-7-7-7-7-7-7----/10------10--12b(14)-----|

G|-----------------------------------11------------------|

D|-------------------------------------------------------|

A|-------------------------------------------------------|

E|-------------------------------------------------------|

 

Verse/Chorus Form:

 

B E

You say you want a revolution well you know

B

We all want to change the world

B E

You tell me that it`s evolution well you know

F#

We all want to change the world

C#m F#

But when you talk about destruction

C#m A B G# F#

Don`t you know that you can count me out (in?)

B E

Don`t you know it`s gonna be Alright

B E

Don`t you know it`s gonna be Alright

B E F#7

Don`t you know it`s gonna be Alright

 

Guitar Details During Verses:

Guitar 1 plays a standard rock & roll shuffle:

 

B

E||----------------------------------------------------------------|

B||----------------------------------------------------------------|

G||----------------------------------------------------------------|

D||----------------------------------------------------------------|

A||-----9----9---9h11--9--9-----9h11--9--9--9h11--9--9--9h11--9--9-|

E||-----7----7---7-----7--7-----7-----7--7--7-----7--7--7-----7--7-|

You say you want a rev o lu ti on well you

 

E

E||----------------------------------------------------------------|

B||----------------------------------------------------------------|

G||----------------------------------------------------------------|

D||-----9----9---9h11--9--9-----9h11--9--9--9h11--9--9--9h11--9--9-|

A||-----7----7---7-----7--7-----7-----7--7--7-----7--7--7-----7--7-|

E||----------------------------------------------------------------|

know we all want to change the...

 

.. and so on, while Guitar 2 plays something along these lines:

B

E||--------------------------------------------------|

B||-------------4----4------4----4---4----4---4----4-|

G||-------------4----4------4----4---4----4---4----4-|

D||-------------4h6--4------4h6--4---4h6--4---4h6--4-|

A||--------------------------------------------------|

E||--------------------------------------------------|

You say you want a rev o lu tion well you

 

E

E||-----------------------------------------------|

B||-----9-----9---9-----9---9-----9-------9-----9-|

G||-----9-----9---9-----9---9-----9-------9-----9-|

D||-----9h11--9---9h11--9---9h11--9-------9h11--9-|

A||-----------------------------------------------|

E||-----------------------------------------------|

know we all want to change the...

 

Guitar 2 plays this figure during the "chorus":

 

B E

E||-------------------------------------------------------11------------|

B||-------------------4----4---------------------------9--12--12-----12-|

G||-------------------4----4------------------9--9h11---------11h13--11-|

D||-------------------4h6--4---------9--9h11----------------------------|

A||---------------------------------------------------------------------|

E||---------------------------------------------------------------------|

... it`s gonna be alright

 

.. repeated a few times, and then the following turnaround:

 

F#7

E||------------------------------------------------|

B||------------------------------------------------|

G||------------------------------------------------|

D||-------------2----------4----------2------------|

A||--------2h4--------2h4--------2h4-------------2-|

E||--2--2----------2----------2----------2--2h4----|

 

Now, over the A B G# chords in the last verse, the lead guitar

plays a screaming figure based on this:

 

E||-----------14-|

B||--14b(16)-----|

G||--------------|

D||--------------|

A||--------------|

E||--------------|

 

And over the B & E chords the final time around, the lead guitar

is rapidly picking in rhythm with the words:

 

E||--9-------|

B||--12b(14)-|

G||----------|

D||----------|

A||----------|

E||----------|

 

.. up until the climactic end.

 

E||-------------10--9--|

B||--b(10)9--7--10--9--|

G||-------------11--10-|

D||-------------12--11-|

A||-------------12--11-|

E||-------------10--9--|

    

 
Internet Map 
 
 
 
...
 

Guitar Pro
 
80-  
     
     
     
     
     
RA      
.net     , ,

06.03.2004, 03.04.2014 , ZaG

| | gtp | | | | | | |

. . . .