...

 

, , ,

 

The Beatles Till There Was You

Intro

 

-1-----|-----------|-------|------

---1---|-----------|-3-----|------

-----2-|-----------|---3---|------

-------|-4---------|-----5-|------

-------|-----------|-------|-3----

-------|-----------|-------|------

F B7/9- (1) Gm C7/9

 

F B7/9- (1)

There were bells on a hill

Gm Bbm

But I never heard them ringing

F Am G#m Gm C7/9

No I never heard them at all

F Gm C7/9

Till there was you

 

F B7/9- (1)

There were birds in the sky

Gm Bbm

But I never saw them winging

F Am G#m Gm C7/9

No I never saw them at all

F B7/9- (2)

Till there was you

 

Bb Bbm F

Then there was music and wonderful roses

D Gm Gm7+ G7 C7 (2) C7/5+

They tell me in sweet fragrant meadows of dawn and you

 

F B7/9- (1)

There was love all around

Gm Bbm

But I never heard it singing

F Am G#m Gm C7/9

No I never heard it at all

F Gm C7/9

Till there was you

 

 

Then the solo. It?s played by two guitars, so I tried to merge

the lines

 

----|---1-----|---------|---------|---------|---3-5-3-|-5-3-5-3|

----|-1---3-1-|---------|-----1-4-|-3-1-----|---3-3-3-|-3-3-3-3|

2-3-|---------|-3-2-0---|---2-----|-----3-2-|-3-3-3-3-|-3-3-3-3|

----|---------|-------3-|-4-------|---------|---------|--------|

----|---------|---------|---------|---------|---------|--------|

----|---------|---------|---------|---------|---------|--------|

F B7/9- (1) Gm

 

---6-8-6-|-8-6-8-6-|-- -10-|-8--7---|-6--|-5----|-1-1---|-----|

---6-6-6-|-6-6-6-6-|-- -10-|-5--4---|-3--|-5----|-----1-|-----|

-6-6-6-6-|-6-6-6-6-|-- -10-|-5--4---|-3--|-3----|-------|-2---|

---------|---------|-10-- -|-7--6---|-5--|-5----|-------|-----|

---------|---------|-------|--------|----|-3----|-------|---0-|

---------|---------|-------|--------|----|-3----|-------|-----|

Bbm F Am G#m Gm C7/6 F

 

-----------|-----1-

-----------|---1---

-----------|-2-----

---1-4-----|-------

-3---------|-------

-----------|-------

B7/9- (2) Then there was

 

Bb Bbm F

music and wonderful roses

D Gm Gm7+ G7 C7 (2) C7/5+

They tell me in sweet fragrant meadows of dawn and you

 

F B7/9- (1)

There was love all around

Gm Bbm

But I never heard it singing

F Am G#m Gm C7/9

No I never heard it at all

F

Till there was you

 

C E C7 (1) F C# F F7+

Tiiiiiill there was youuuuuuuuuuuuu

    

 
Internet Map 
 
 
 
...
 

Guitar Pro
 
80-  
     
     
     
     
     
RA      
.net     , ,

06.03.2004, 03.04.2014 , ZaG

| | gtp | | | | | | |

. . . .