...

 

, , ,

 

The Beatles Black Bird

5- , 2- , ,

,

, , .

 

, ,

, .

 

E|-------------------|---------------------------------------|

B|--0-----1-----3----|--12----12----12-----12----12----12----|

G|-----0-----0-------|------0----------0-------0----------0--|

D|-------------------|---------------------------------------|

A|--------0-----2----|--10-------10--------10-------10-------|

E|--3----------------|---------------------------------------|

 

G Am G/B G

E|-------------------|---------------------------------------|

B|--0-----1-----3----|--12----12----12-----12----12----12----|

G|-----0-----0-------|------0----------0-------0-------------|

D|-------------------|---------------------------------------|

A|--------0-----2----|--10-------10--------10-------10-------|

E|--3----------------|---------------------------------------|

 

G Am7 G/B G

Black bird singing in the dead of night

E|---------------------|-------------------------------------|

B|-0-------1--------3--|----12----12---12-----12----12----12-|

G|-----0-------0-------|--------0---------0-------0----------|

D|---------------------|-------------------------------------|

A|-0------2-------10---|-10--------10------10----------------|

E|-3-------------------|-------------------------------------|

 

C C#dim D D#dim Em Eb

Take these broken wings and learn to fly.

E|-------3----------------5------|---------------------------|

B|-5--------------7--------------|-8----8---8---8----8---8---|

G|----0-------0------ 0--------0-|----0-------0----0-------0-|

D|-------------------------------|---------------------------|

A|-3-----4--------5-------6------|-7------7-----6------6-----|

E|-------------------------------|---------------------------|

 

D C#dim C Cm

All your ____ life,

E|----------3------------------------------------------------|

B|-7-----------------5-------5---5-------------4-----4-----4-|

G|------0--------0---------0---------0---0----------0--------|

D|-----------------------------------------------------------|

A|-5--------4--------3---------3---------------3--------3----|

E|-----------------------------------------------------------|

 

you were only waiting for this mo__ment to ar_ise.

E|-----------------------------------------------------------|

B|-3------3---3--2---2-----2-----1----1----1---0-----0---0---|

G|-----0-----------0----------0-----0---0----0-----0-------0-|

D|--------------------0--------------------------------------|

A|-2--------2----0------0----------------------3-------3-----|

E|-----------------------------------------------------------|

 

Intro: G(1) Am7 G/B(1) G(2)

 

1-st Verse:

 

G(1) Am7 G/B(1) G(2)

Blackbird singing in the dead of night.

C C#dim D D#dim Em Eb D C#dim C Cm

Take these broken wings and learn to fly. All your life,

G/B(2) A7 Gsus4/D G(1)

you were only waiting for this moment to arise.

 

TRANSITION: C G/B(2) A7 Gsus4/D G(1)

 

2-nd Verse:

G(1) Am7 G/B(1) G(2)

Blackbird singing in the dead of night.

C C#dim D D#dim Em Eb D C#dim C Cm

Take these sunken eyes and learn to see. All your life,

G/B(2) A7 Gsus4/D G(1)

you were only waiting for this moment to be free.

 

 

Chorus:

F C/E Dm C Bb6 C F C/E Dm C Bb6 A7

Black - bird fly, Black - bird fly,

Gsus4/D G(1) Am7 G/B(1)

Into the light of a dark black night.

 

GUITAR VERSE:

 

G(2) C C#dim D D#dim Em Eb

D C#dim C Gm G/B(2) A7 Gsus4/D G(1)

 

Chorus:

F C/E Dm C Bb6 C F C/E Dm C Bb6 A7

Black - bird fly, Black - bird fly,

Gsus4/D G(1) Am7 G/B(1)

Into the light of a dark black night.

 

 

 

TRANSITION:

G(1) Am7 G/B(1) G(2) G(1) Am7 G/B(1)

C G/B(2) A7 Csus4/D

 

3-rd Verse:

 

G(1) Am7 G/B(1) G(2)

Blackbird singing in the dead of night.

C C#dim D D#dim Em Eb D C#dim C Cm

Take these broken wings and learn to fly. All your life,

G/B(2) A7 Gsus4/D G(1)

you were only waiting for this moment to arise.

 

End:

C G/B(2) A7 Gsus4/D G(1)

you were on___ly wai__ting for this mo____ment to a-rise.

C G/B(2) A7 Gsus4/D G(3)

you were on___ly wai__ting for this mo____ment to a-rise.

 

G(1) Am7 G/B(1) G(2) III C III C#dim

1|------- |------- |------- |------- |------- |---3---

2|---0--- |---1--- |---3--- |---12-- |---5--- |-------

3|------- |------- |------- |------- |------- |-------

4|------- |------- |------- |------- |------- |-------

5|------- |---0--- |---2--- |---10-- |---2--- |---4---

6|---3--- |------- |------- |------- |------- |-------

 

D V D#dim V Em VII Eb V G/B(2) Cm

1|------- |---5--- |------- |------- |------- |-------

2|---7--- |------- |---8--- |---8--- |---3--- |---4---

3|------- |------- |------- |------- |------- |-------

4|------- |------- |------- |------- |------- |-------

5|---5--- |---6--- |---7--- |---6--- |---2--- |---3---

6|------- |------- |------- |------- |------- |-------

 

C/E VII A7 Gsus4/D F VII Dm V Bb6

1|------- |------- |------- |------- |------- |-------

2|---8--- |---2--- |---1--- |---10-- |---6--- |---3---

3|------- |------- |------- |------- |------- |-------

4|------- |------- |---0--- |------- |------- |-------

5|---7--- |---0--- |------- |---8--- |---5--- |---1---

6|------- |------- |------- |------- |------- |-------

 

 

G(3)

1|---3---

2|---0---

3|---0---

4|---0---

5|-------

6|---3---

    

 
Internet Map 
 
 
 
...
 

Guitar Pro
 
80-  
     
     
     
     
     
RA      
.net     , ,

06.03.2004, 03.04.2014 , ZaG

| | gtp | | | | | | |

. . . .