...

 

, , ,

 

The Beatles Drive My Car

Intro:

D

E|-----------------------------------------------------|

B|-----------6b(7)-----7--7--5-----5--7----------------|

G|-------5--5b(7)--5------------5--7--7--5-----5--7----|

D|----7---------------7---------------------7----------|

A|-----------------------------------------------------|

E|-----------------------------------------------------|

 

Verse:

Asked a girl what she wanted to be

D G

E|-----------------------------------------------------|

B|-----------------------------------------------------|

G|-----------------------------------------------------|

D|-------7---------------------------------------------|

A|----5---------7/9-----97--5---------------------5----|

E|--------------------3------------5/7-----75--3-------|

 

She said baby Can`t you see

D G

E|-----------------------------------------------------|

B|-----------------------------------------------------|

G|-----------------------------------------------------|

D|-------7---------------------------------------------|

A|----5---------7/9-----97--5---------------------5----|

E|-------------------3------------5/7-----75--3--------|

 

I wanna be famous a star of the screen

D G

E|-----------------------------------------------------|

B|-----------------------------------------------------|

G|-----------------------------------------------------|

D|--------7--------------------------------------------|

A|--5------------7/9-----97--5-----------------------5-|

E|--------------------3---------------5/7-----75--3----|

 

But you can do something in between

A Bm

E|------------------------------------------------------|

B|------------------------------------------------------|

G|------------------------------------------------------|

D|------------------------------------------------------|

A|-7--7-----7--7----------------7--9--7-----------------|

E|-5--5-----5--5-----------7/9-----------9--7-----------|

 

Chorus:

Bm A G A

Baby you can drive my car (see note)

E|------------------------------------------------------|

B|-----------------------3-----5--6--5-----3------------|

G|-----------------------4-----5--7--5-----4------------|

D|----9-----9--------9------9--7--5-----5-----5----5--7-|

A|----9-----9--------9------9--7--5-----5-----5----5--7-|

E|----7-----7--------7------7--5--3-----3-----3----3--5-|

 

Bm A G A

Yes I`m gonna be a star

E|------------------------------------------------------|

B|--------------------3-----5--6--5-----3---------------|

G|--------------------4-----5--7--5-----4---------------|

D|----9-------9-----9----9--7--5-----5-----5-----5--7---|

A|----9-------9-----9----9--7--5-----5-----5-----5--7---|

E|----7-------7-----7----7--5--3-----3-----3-----3--5---|

 

Bm

Baby you can drive my car

E|----------------------------|

B|----------------------------|

G|----------------------------|

D|----9-----9--------9-----9--|

A|----9-----9--------9-----9--|

E|----7-----7--------7-----7--|

 

Em A D G A

And baby I love you

E|-----------------------------------------------------------|

B|-----------------------------------------------------------|

G|-----------------------------------------------------------|

D|-----------------------------------------------------------|

A|---0-----------5--5-------5------------------7--9--7-------|

E|--0--2--3--0------3--2--0--------5/7-----75--3--5--7/9---9-|

 

Verse:

Told that girl that my prospects were good

She said baby, it`s understood

Working for peanuts is all very fine

But I can show you a better time

 

Repeat Chorus:

 

A D

Beep beep `m beep beep YEAH!

 

Guitar solo:

D G

E|--b(10)8-------------------------------|

B|-------------b(10)8--6--8--8--8--6--8--|

G|-------6b(7)----------7----------------|

D|----7----------------------------------|

A|---------------------------------------|

E|---------------------------------------|

 

D G

E|--b(10)8-------------------------------------------|

B|-------------b(10)8--6--8--8--8--6-----------------|

G|-------6b(7)----------7-------------------------7--|

D|----7----------------------------------------------|

A|---------------------------------------------------|

E|---------------------------------------------------|

 

D G

E|--b(10)8-------------------------------|

B|-------------b(10)8--6--8--8--8--6--8--|

G|-------6b(7)----------7----------------|

D|----7----------------------------------|

A|---------------------------------------|

E|---------------------------------------|

 

A Bm

E|------------------------------------------------------------|

B|----10--10b(13)--13--13b(15)--15--15b(18)--B(18)15--13--15--|

G|------------------------------------------------------------|

D|------------------------------------------------------------|

A|------------------------------------------------------------|

E|------------------------------------------------------------|

 

Repeat chorus:

 

Verse:

Told that girl I could start right away

She said listen to me baby I got something to say

I got no car and it`s breaking my heart

But I got a driver and that`s a start

 

Repeat chorus:

 

Ending (repeat to fade):

D G A

Beep beep `m beep beep YEAH!

E|---------------------------------------------|

B|---------------------------------------------|

G|---------------------------------------------|

D|---------------------------------------------|

A|--5--------5------------------7--9--7-----5--|

E|-------5/7-----75--3--5--7/9-----------9-----|

    

 
Internet Map 
 
 
 
...
 

Guitar Pro
 
80-  
     
     
     
     
     
RA      
.net     , ,

06.03.2004, 03.04.2014 , ZaG

| | gtp | | | | | | |

. . . .