...

 

, , ,

 

The Beatles Her Majesty

 

 

Her Majesty`s a pretty nice girl but she hasn`t got a lot to say

D D/C# D/B D E7 A7 D

E|-2---2-2----2--2---2----2-2-----2--2-------------------------|

B|-3---3-2----3--3---3----3-3-----3--3-----3--3-----2--3-------|

G|-2---2-2----2--2---2----2-3-----2--2-----1--1-----0--2-------|

D|-0-0-------------------------------------2--2-----2--0-------|

A|-0--------4----------2-------0-----------------0-------0-2-4-|

E|-2------------------------------------0----------------------|

 

Her Majesty`s a pretty nice girl but she changes from day to day

D/C# D/B D E7 A

E|---2-2----2--2---2-----2-2-----2---2-------------------------|

B|---3-2----3--3---3-----3-3-----3---3------3-----3----2-2-3-2-|

G|---2-2----2--2---2-----2-3-----2---2------1-----1----2-2-2-2-|

D|-0----------------------------------------2-----2----2-2-4-2-|

A|--------4----------2--------0----------------------0---------|

E|--------------------------------------0------0---------------|

 

I wanna tell her I love her alot but I gotta get a belly fulla

wine

Bm Bm9 D7 G

E|-------------------------------------------------------------|

B|----3--3--------3-------2----2--2--------1-------1-----0---0-|

G|----4--4--------4-------4----4--4--------2-------2-----0---0-|

D|----4--4--------4-------4----4--4---0--------0---------0---0-|

A|-2---------2--------2-----2----------------------------------|

E|-----------------------------------------------------3---3---|

 

Her Majesty`s a pretty nice girl some day I`m gonna make her

(S) Ddim D B7 E7 A

E|-----7--7-----7----7--------2--------------------------------|

B|-----6--6-----6----6--------3---------0----------3---------2-|

G|---7-7--7--7--7----7--------2---------2----------1---------2-|

D|-----6--6-----6----6---0--------------1----------2---------2-|

A|---------------------------------2---------------------0-----|

E|-------------------------------------------0-----------------|

 

Mine oh yeah some day I`m gonna make her mine.

D B7 E7 A7 D

E|-------2-----------------------------------------------------|

B|-------3------0---------------3---------2--------------------|

G|-------2------2---------------1---------2--------------------|

D|--0-----------1---------------2---------2----0---------------|

A|------------2-----------------------0------------0-----------|

E|---------------------0---------------------------------------|

    

 
Internet Map 
 
 
 
...
 

Guitar Pro
 
80-  
     
     
     
     
     
RA      
.net     , ,

06.03.2004, 03.04.2014 , ZaG

| | gtp | | | | | | |

. . . .