...

 

, , ,

 

The Beatles I Feel Fine

riff (repeat as needed):

D C

E|-------------------------------------------------------------|

B|-------------------------------------------------------------|

G|-----------------12--11------11--------------------10-9----9-|

D|----12-12-10-------------14---------10--10--8-----------12---|

A|-------12----12-------------------------10-----10------------|

E|-10------------------------------8---------------------------|

 

G

E|------------------------------------------------------|

B|------------------------------------------------------|

G|----------------5--4-----4-----------------5--4-----4-|

D|----5--5--3-----------7--------5--5--3-----------7----|

A|-------5-----5--------------------5-----5-------------|

E|-3--------------------------3-------------------------|

 

Verse 1:

G

Baby`s good to me you know she`s happy as can be

D

You know she said so

C G

I`m in love with her and I feel fine

 

Verse 2:

G

Baby says she`s mine you know she tells me all the time

D

You know she said so

C G

I`m in love with her and I feel fine

 

Middle:

G Bm C D7

I`m so glad that she`s my little girl

G Bm Am D7

She`s so glad she`s telling all the world

 

Verse 3:

G

That her baby buys her things you know he buys her diamond rings

D7

You know she said so

C G

I`m in love with her and I feel fine

 

Solo:

 

E|-------------------------------------|

B|-------6-------8-------6-------------|

G|--5/7-----7/9-----5/7-----75--3------|

D|----------------------------------5--|

A|-------------------------------------|

E|-------------------------------------|

 

Then play magic "I Feel Fine" riff as band comes back in.

 

Then repeat from verse 2 to the end of verse 3, except instead

of the very last line of verse 3, substitute:

 

D7 C G

She`s in love with me and I feel fine

D7 C G

She`s in love with me and I feel fine

    

 
Internet Map 
 
 
 
...
 

Guitar Pro
 
80-  
     
     
     
     
     
RA      
.net     , ,

06.03.2004, 03.04.2014 , ZaG

| | gtp | | | | | | |

. . . .