...

 

, , ,

 

-2 -

 

 

Gm D# Cm F

A|-------------|-6-6-------6-|-3-3-------3|-------------| BA

E|-3-3-------3-|-------------|------------|-1-1-------1-| SS

Gm D# Cm F Gm D# Cm F

Gm D# Cm F Gm D# Cm F

Gm D# Cm F Gm D# Cm F

Gm D# Cm F Gm D# Cm F

Gm D# Cm F

(4 )

Gm D# Cm F Gm D# Cm F

Gm Am(V)? A# Cm D

H

Gm D# Cm F Gm D# Cm F

Gm D# Cm F Gm D# Cm F

Gm D# Cm F

(4 )

:

G|-------7-8---|------------|------------|-----7-8-|--5--5-------------| BA

D|-------------|------------|------------|---------|-------------------| SS

A|-------------|-3--5-6-5-3-|------------|---------|-3--3---30---------| BA

E|--3-3--------|------------|--111--222--|-3-3-----|-----------111-222-| SS

G|-------7-8---|--5--5------|--------7-8-|---------|-------------------| BA

D|-------------|------------|------------|---------|-------------------| SS

A|-------------|-3--3--30---|------------|-5-------|-------------------| BA

E|--3-3--------|----------1-|-11-2-3-----|---------|-------------------| SS

-

Gm D# Cm F

- (4 )

Gm D# Cm F

(10 )

    

 
Internet Map 
 
 
 
...
 

Guitar Pro
 
80-  
     
     
     
     
     
RA      
.net     , ,

06.03.2004, 03.04.2014 , ZaG

| | gtp | | | | | | |

. . . .