...

 

, , ,

 

-2 -

 

Am F Am F

4|----------------|-2-3---2-3-3/9---|-----------------|-----------------|

5|----------------|-----------------|---------------5-|-5-5-5-3--3-5-(7)|

 

Am

 

Am F Am F

,

G F Am F

.

?

.

 

:

C G Am Dm

1|---0-----0-------|---1-----3-----3-|-0-5-----5-----3-|---3-0---3-0---0-|

2|-----0-1-----0-1-|-----0-1---0-1---|-----0-1---0-1---|-------1-----1---|

3|----------(4)----|-----------------|-----------------|-----------------|

,

 

G F

2|---0-1---0-1---0-|---0-1---0-1---0-|---0-1---|

3|-0-----0-----0---|-------0---------|---------|

? ...

 

:

Am

?

G F

.

 

Am F

1|---0-----0-----0-|---1-----1-----1-|

2|-----0-----0-----|-----0-----0-----|

3|-2-----2-----2---|-------2-----2---|

-

1|---5-----5-----5-|

2|-----5-----5-----|

3|-------7-----7---|

.

2|-1----0-1--0-3-|

3|---2-----------|x2

-

2|-1----0-1--0---|

3|---2---------2-|x2

.

 

.

 

.

 

:

Am F

3|-10----9-9-----7-|-7-----5-5----/10|x2

 

G F Am F

1|---------------8-|-8---------------|-----------------|-7@-7@-7@-|

2|-10--------------|-------6-6-------|-----------------|-7@-7@-7@-|

3|-------5-5-------|---------------7-|-9---------------|----------|

 

Am F

1|-8-------------10|-------8---------|

2|10---------------|-12------10----10|

3|-------109-------|-----------------|x2

 

G F Am

1|-8-----------10--|-12--------------|---|

2|-----------------|-----------------|---|

3|-----------------|---------------10|-9-|

 

.

 

2.

 

Outro = 2 0.5 2.

    

 
Internet Map 
 
 
 
...
 

Guitar Pro
 
80-  
     
     
     
     
     
RA      
.net     , ,

06.03.2004, 03.04.2014 , ZaG

| | gtp | | | | | | |

. . . .