...

 

, , ,

 

- Ave Maria ( )

 

 

1

E||--------------------0-----|--------------------0-----|

B||--------1---------1---1---|--------1---------1---1---|

G||------0---0-----0-------0-|------0---0-----3-------3-|

D||----2-------2-------------|----2-------2-------------|

A||--3-----------3-----------|--3-----------3-----------|

E||--------------------------|--------------------------|

 

 

--------1-----------------|--------0-----------------|

------1---1---------1-----|------1---1---1-----1-----|

----2-------2-----0---0---|----0-------0-----0---0---|

----------------2-------2-|----------------2-------2-|

--3-----------3-----------|--3-----------3-----------|

--------------------------|--------------------------|

 

 

--------------0-----------|--------------------------|

--------0---1-------1-----|--3-----0-----1-----1-----|

------5-----------0---0---|------0---0-------2---2---|

----4-----4-----2-------2-|----3-------3---2-------2-|

--0-----------------------|--------------0-----------|

--------------3-----------|--3-----------------------|

 

 

----------------------0---|--------------------------|

--------1-----3-----3---3-|--1---0-----0-1-----1-----|

------2---2-------2-------|--------2---------0---0---|

----2-------2---3---------|----3-----3-----2-------2-|

--0-----------------------|--------------3-----------|

--------------1-----------|--3-----------------------|

 

 

------------0-0-----0-----|--------0---2-0-----------|

--------1-------------3-1-|--0-----------------4-----|

------0---0-------1-------|------2---2-------2---2---|

----2-----------2---------|----2-----------4-------4-|

--3-----------3-----------|--3-----------2-----------|

--------------------------|--------------------------|

 

 

--------------------------|--------------------------|

--------4---0-3-----3-----|--0-3-5-6-3-0-1-----1-----|

------2---2-------4---4-5-|------------------2---2---|

----4-----------3---------|----------------2-------2-|

--2-----------------------|--------------0-----------|

--------------4-----------|--4-----------------------|

 

 

--------0-----------------|--------3-----------------|

------1---1-3-3-----0---0-|----2-5---5-2-3---0-3-0---|

------------------0---0---|--2-------------0-------0-|

----4-----------0---------|--5-----------------------|

--0-----------2-----------|--------------------------|

--------------------------|--0-----------------------|

 

 

------------------------3-----|--------------------------|

------0-1-0-1-0-----0-3---3-0-|------0-3---0-3---0-3-0-3-|

----2-----------2-0-----------|--------------------------|

--0---------------------------|----3-----3-----3---------|

------------------------------|--------------------------|

------------------3-----------|--3-----------3-----------|

 

 

------------0-------------|--------------------------|

--3---2-3-----3-----1-----|--------1-----3-----3---3-|

------------------0---0---|------0---0-------4-------|

----3-----3-----2-------2-|----2-------2---3-----3---|

--------------------------|--------------------------|

--3-----------3-----------|--3-----------3-----------|

 

 

--------1-0---------------|--------------------------|

--3-2-3-----3-1-----1-----|--------1-----3---0-3---3-|

------------------2---2---|------2---2-----0---------|

----------------2-------2-|----2-------2---------3---|

--------------0-----------|--0-----------------------|

--3-----------------------|--------------3-----------|

 

 

--0---0-0---0-3-----1-----|--------1-----0-----------|

----------3-------3---3---|------3---3---------3---1-|

----1-----------2-------2-|----2-------2-----2-------|

--------------------------|--3-------------3-----3---|

--------------------------|--------------------------|

--0-----------1-----------|--------------1-----------|

 

 

--------------------------|--------3-----------------|

--1-0-1-4-3-1-3---0-3-0---|----0-3---3-0-1-----1-----|

----------------0-------0-|------------------0---0---|

--------------------------|--3-------------2-------2-|

--------------------------|--------------3-----------|

--0-----------3-----------|--3-----------------------|

 

 

--------------0-----------|--------------------------|

--------0---1-------1-----|--3-----0-----1-----1-----|

------5-----------0---0---|------0---0-------0---0---|

----4-----4-----2-------2-|----3-------3---2-------2-|

--0-----------------------|--------------3-----------|

--------------3-----------|--3-----------------------|

 

 

--------0-----------------|--------------------1-----|

------1---1---------1-----|------1-5-1-------1---1---|

----0-------0-----0---0---|----3-------3---2-------2-|

----------------2-------2-|--------------------------|

--3-----------3-----------|--3-----------3-----------|

--------------------------|--------------------------|

 

 

--------------------------|---------------||

--------0-----------1-----|---------------||

------1---1-------0---0---|---------------||

----3-------3---2-------2-|---------------||

--3-----------3-----------|--3------------||

--------------------------|---------------||

 

 

    

 
Internet Map 
 
 
 
...
 

Guitar Pro
 
80-  
     
     
     
     
     
RA      
.net     , ,

06.03.2004, 03.04.2014 , ZaG

| | gtp | | | | | | |

. . . .