...

 

, , ,

 

- - Chi mai

 

E||--------------------------------|----------------------------------|

B||--------10------10------10------|--10------10------10------10------|

G||--------------------------------|----------------------------------|

D||--------------------------------|----------------------------------|

A||--------------------------------|----------------------------------|

E||--------------------------------|----------------------------------|

 

 

--9----------------------9----------9----------|

-------------10--------------------------------|

---------11------11-------------11---------11--|

-----11--------------11-----11---------11------|

--9----------------------9----------9----------|

-----------------------------------------------|

 

 

--------------7--5--7-----------------|--5--------2-----------------4-----5--|

-----------5-----------------5--------|--------2--------2--------2-----------|

--------4-----------------4-----4-----|-----2--------2--------2--------2-----|

-----6-----------------6-----------6--|--4-----------------4-----------------|

--------------------------------------|--------------------------------------|

--0-----------------0-----------------|--------------------------------------|

 

 

--5--------------------------4-----2--|--4-----------------------------------|

-----------3--------------0-----------|-----------2--------------------------|

--------2--------2-----1--------1-----|--------2--------2--------2--------2--|

-----4--------4-----------------------|-----2--------2--------2--------2-----|

--2-----------------------------------|--0-----------------0--------0--------|

--------------------0-----------------|--------------------------------------|

 

 

-----------2-----0--2-----------------|

--------3--------------------3--------|

-----2--------2-----------4--4-----4--|

--0--------------------4--------4-----|

--------------------2-----------------|

--------------------------------------|

 

 

------------9----------------------------------|

---------9-------------12----------12----------|

-----10------------10----------10----------10--|

---------------11----------11----------11------|

-----------------------------------------------|

--9--------------------------------------------|

 

 

------------9---------9---------9---------|

---------9---------9---------9---------9--|

-----10--------10--------10--------10-----|

------------------------------------------|

------------------------------------------|

--9---------------------------------------|

 

 

--9----------------------9----------9----------|

-------------10--------------------------------|

---------11------11-------------11---------11--|

-----11--------------11-----11---------11------|

--9----------------------9----------9----------|

-----------------------------------------------|

 

 

--------------------------------------------|

---------------12--10--12-------------------|

------------9---------------------9---------|

---------9---------------------9-----9------|

-----11--------------------11-----------11--|

--0--------------------0--------------------|

 

 

--------------14---------------------4----5--|

--10------10----------10---------10----------|

------11----------11---------11--------------|

--0-----------------------0------------------|

---------------------------------------------|

---------------------------------------------|

 

 

--5-----------------4h2-4--4h2-4--4h2-4--|

-----------3-----------------------------|

--------2--------2-----------------------|

-----4--------4--------------------------|

--2--------------------------------------|

--------------------0--------------------|

 

 

--4-----------------------------------|

-----------2--------2--------2--------|

--------2--------2--------2--------2--|

-----2--------2--------2--------2-----|

--0-----------------------------------|

--------------------------------------|

 

 

--2--------2--------2h0-2--2h0-2--2h0-2--|

--3-----3--------3-----------------------|

-----2--------2--------------------------|

--0-----------------0--------------------|

-----------------------------------------|

-----------------------------------------|

 

 

--2-----------------------------------|

-----------0--------0--------0--------|

--------------------------------------|

-----0--4-----0--4-----0--4-----0--4--|

--------------------------------------|

--4-----------------------------------|

 

 

-----------------------------------------|

--6--------6--------6h4-6--6h4-6--6h4-6--|

--------6--------6-----------------------|

-----6--------6--------------------------|

--4-----------------4--------------------|

-----------------------------------------|

 

 

-----------2--------2-----------------|--------------------------------------|

--------2--------2--------2--------2--|-----------2--------2--------2--------|

-----2--------2--------2--------2-----|--------2--------2--------2--------2--|

--4--------------------------4--------|-----4--------4--------4--------4-----|

--------------------------------------|--------------------------------------|

--------------------------------------|--2-----------------------------------|

 

 

---------------------------------------|

--2-----------0h2h3h2------------------|

--------2-------------4h2h4------2--1--|

-----4---------------------------------|

---------------------------------------|

--2--------0---------------------------|

 

 

----------------------------------------0-|

-----------2----------------------0-2-3---|

--2-----2--------2--------1--2------------|

-----4--------4--------4------------------|

------------------------------------------|

--2-----------------0---------------------|

 

 

--2--------2--0h2h3h2-0----0----------|--------------------------------------|

--------3-----------------------3--2--|--3--------3--------3--------3--2--0--|

-----2--------------------------------|--------4--------4--------4-----------|

--0-------------------4---------------|-----4--------4--------4--------------|

--------------------------------------|--2-----------------------------------|

--------------------------------------|--------------------------------------|

 

 

-----------2--------4----------------|-----------------------------------4--|

--2-----2--------2--------------4----|--6--------6--------6--------6--7-----|

-----2--------2--------------5-------|--------6--------6--------6-----------|

--4-----------------------4----------|-----6--------6--------6--------------|

-----------------------6-------------|--4-----------------------------------|

--------------------4----------------|--------------------------------------|

 

 

--5------9------7-------------|--4--------4--------4--------4--------|

--7-------------7----------7--|--------6--------6--------7--------7--|

--6-------------7-------------|-----6--------6--------6--------6-----|

--4---------------------------|--4-----------------------------------|

------------------------------|--------------------------------------|

----------------7-------------|--------------------------------------|

 

 

--4--------4--------4--------4--------|

--------6--------6--------7--------7--|

-----6--------6--------6--------6-----|

--4-----------------------------------|

--------------------------------------|

--------------------------------------|

 

 

--9----------------------9----------9----------|

-------------10--------------------------------|

---------11------11-------------11---------11--|

-----11--------------11-----11---------11------|

--9----------------------9----------9----------|

-----------------------------------------------|

 

 

--------------7--5--7-----------------|--5--------2-----------------4-----5--|

-----------5-----------------5--------|--------2--------2--------2-----------|

--------4-----------------4-----4-----|-----2--------2--------2--------2-----|

-----6-----------------6-----------6--|--4-----------------4-----------------|

--------------------------------------|--------------------------------------|

--0-----------------0-----------------|--------------------------------------|

 

 

--5--------------------------4-----2--|--4-----------------------------------|

-----------3--------------0-----------|-----------2--------------------------|

--------2--------2-----1--------1-----|--------2--------2--------2--------2--|

-----4--------4-----------------------|-----2--------2--------2--------2-----|

--2-----------------------------------|--0-----------------0--------0--------|

--------------------0-----------------|--------------------------------------|

 

 

-----------2-----0--2-----------------|

--------3--------------------3--------|

-----2--------2-----------4--4-----4--|

--0--------------------4--------4-----|

--------------------2-----------------|

--------------------------------------|

 

 

------------9----------------------------------|

---------9-------------12----------12----------|

-----10------------10----------10----------10--|

---------------11----------11----------11------|

-----------------------------------------------|

--9--------------------------------------------|

 

 

------------9---------9---------9---------|

---------9---------9---------9---------9--|

-----10--------10--------10--------10-----|

------------------------------------------|

------------------------------------------|

--9---------------------------------------|

 

 

--9----------------------9----------9----------|

-------------10--------------------------------|

---------11------11-------------11---------11--|

-----11--------------11-----11---------11------|

--9----------------------9----------9----------|

-----------------------------------------------|

 

 

--------------------------------------------|

---------------12--10--12-------------------|

------------9---------------------9---------|

---------9---------------------9-----9------|

-----11--------------------11-----------11--|

--0--------------------0--------------------|

 

 

--------------14---------------------4----5--|

--10------10----------10---------10----------|

------11----------11---------11--------------|

--0-----------------------0------------------|

---------------------------------------------|

---------------------------------------------|

 

 

--5-----------------4h2-4--4h2-4--4h2-4--|

-----------3-----------------------------|

--------2--------2-----------------------|

-----4--------4--------------------------|

--2--------------------------------------|

--------------------0--------------------|

 

 

--4-----------------------------------|

-----------2--------2--------2--------|

--------2--------2--------2--------2--|

-----2--------2--------2--------2-----|

--0-----------------------------------|

--------------------------------------|

 

 

--2--------2--------2h0-2--2h0-2--2h0-2--|

--3-----3--------3-----------------------|

-----2--------2--------------------------|

--0-----------------0--------------------|

-----------------------------------------|

-----------------------------------------|

 

 

--2-----------------------------------|

-----------0--------0--------0--------|

--------------------------------------|

-----0--4-----0--4-----0--4-----0--4--|

--------------------------------------|

--4-----------------------------------|

 

 

-----------------------------------------|

--6--------6--------6h4-6--6h4-6--6h4-6--|

--------6--------6-----------------------|

-----6--------6--------------------------|

--4-----------------4--------------------|

-----------------------------------------|

 

 

-----------2--------2-----------------|-----------2--------2-----------------|

--------2--------2--------2--------2--|--------2--------2--------2--------2--|

-----2--------2--------2--------2-----|-----2--------2--------2--------2-----|

--4--------------------------4--------|--2--------------------------2--------|

--------------------------------------|--------------------------------------|

--------------------------------------|--------------------------------------|

 

 

-----------2--------2-----------------|-----------2--------2-----------------|

--------2--------2--------2--------2--|--------2--------2--------2--------2--|

-----2--------2--------2--------2-----|-----2--------2--------2--------2-----|

--0--------------------------0--------|--------------------------------------|

--------------------------------------|--4--------------------------4--------|

--------------------------------------|--------------------------------------|

 

 

-----------2-----------------2--------|-----------2-----------------2--------|

--------2--------2--------2--------2--|--------2--------2--------2--------2--|

-----2--------2--------2--------2-----|-----2--------2--------2--------2-----|

--------------------------------------|--------------------------------------|

--2-----------------0-----------------|--------------------------------------|

--------------------------------------|--4-----------------2-----------------|

 

 

--2--------2-------------2----14----||

--------2--------2------------------||

-----2--------2---------------------||

------------------------------------||

------------------------------------||

--------------------2---------------||

 

 

    

 
Internet Map 
 
 
 
...
 

Guitar Pro
 
80-  
     
     
     
     
     
RA      
.net     , ,

06.03.2004, 03.04.2014 , ZaG

| | gtp | | | | | | |

. . . .