...

 

, , ,

 

- . .

 

Classical Guitar

E||-----------------|-------3-----------|-------3-----------|-----------------|

B||-----------------|-------3-----------|-------3-----------|-----------------|

G||-----------------|-------3-----------|-------3-----------|-------5----7----|

D||-----------------|-------5-----------|-------3-----------|-------5----5----|

A||--------5--------|-------5--5--------|----------5--------|-------3---------|

E||-----------6--5--|--3----3-----6--5--|--3----------6--5--|--3---------6----|

 

 

------------2----|------------3----|-------------------|--------------------|

--8----8----3----|-------0----3----|-------0--3h-0-----|--------0-----------|

--7----7----2----|--0----0----4----|--0----0--------2--|--0-----------0--2--|

--8----8----0----|--0----0---------|--0----0-----------|-----0-----0--------|

--6----6---------|-----------------|-------------------|--------------------|

-----------------|--3--------------|--3----------------|--3-----------------|

 

 

--------------------|--------------------|--------------------|

--1--------0--------|--------------------|--------------------|

--------0-----------|--------2-----2h-4--|--------2--2--------|

-----0--------4h-5--|-----2-----2--------|-----2--------4h-2--|

--------------------|--0-----------------|--0-----------------|

--------------------|--------------------|--------------------|

 

 

--------------------|--------------------|--------------0-----|

-----------------0--|--3-----------------|--3--------0-----3--|

--------2-----2-----|--------2--2--2h-4--|--------0-----------|

-----0-----0--------|-----0--------------|-----0--------------|

--5-----------------|--------------------|--------------------|

--------------------|--------------------|--3-----------------|

 

 

--------------------------|--------------------|--------------------|

--------3-----------------|--------0-----------|--1--------0--------|

-----2--------------------|--0-----------0--2--|--------0-----------|

--0--------4--2--0--------|-----0-----0--------|-----0--------4h-5--|

--------------------3--0--|--------------------|--------------------|

--------------------------|--3-----------------|--------------------|

 

 

--------------------|--------------------|--------------------|

-----------------0--|--3--------1--0h-1--|--0-----0-----------|

--------2-----2-----|--------2-----------|-----------1--2-----|

-----2-----2--------|-----2--------------|-----4-----------2--|

--0-----------------|--------------------|--2-----------0-----|

--------------------|--------------------|--------------------|

 

 

--------------------|------------------|--------------------|

--------------------|---------3h-0-----|--------0-----------|

--2-----------------|---------------2--|--0-----------0--2--|

-----4--5-----2-----|------------------|-----0-----0--------|

-----------2-----4--|--5---------------|--------------------|

--------------------|------------------|--3-----------------|

 

 

--------------------|--------------------|--------------------|

--1--------0--------|--------------------|--------------------|

--------0-----------|--------2-----2h-4--|--------2--2--------|

-----0--------4h-5--|-----2-----2--------|-----2--------4h-2--|

--------------------|--0-----------------|--0-----------------|

--------------------|--------------------|--------------------|

 

 

--------------------|--------------------|--------------0-----|

-----------------0--|--3-----------------|--3--------0-----3--|

--------2-----2-----|--------2--2--2h-4--|--------0-----------|

-----0-----0--------|-----0--------------|-----0--------------|

--5-----------------|--------------------|--------------------|

--------------------|--------------------|--3-----------------|

 

 

--------------------------|--------------------|--------------------|

--------3-----------------|--------0-----------|--1--------0--------|

-----2--------------------|--0-----------0--2--|--------0-----------|

--0--------4--2--0--------|-----0-----0--------|-----0--------4h-5--|

--------------------3--0--|--------------------|--------------------|

--------------------------|--3-----------------|--------------------|

 

 

--------------------|------------------|--------------------|

-----------------0--|--3------1--0--1--|--0-----0-----------|

--------2-----2-----|------------------|-----------1--2-----|

-----2-----2--------|------------------|-----4-----------2--|

--0-----------------|------------------|--2-----------0-----|

--------------------|------------------|--------------------|

 

 

--------------------|---------------------|--------------|-----------------|

--------------------|---------------------|--------------|-------0----3----|

--2-----------------|---------------------|--------------|--0----0----4----|

-----4--5-----2-----|---------------------|--------------|--0----0----5----|

-----------2-----4--|--5------3--2h3h2-0--|--------------|-----------------|

--------------------|---------------------|--3--2--0--2--|--3--------------|

 

 

-----------------|---------------||

-------0----3----|--0------------||

--0----0----4----|--0------------||

--0----0----5----|--0------------||

-----------------|---------------||

--3--------------|--3------------||

 

 

    

 
Internet Map 
 
 
 
...
 

Guitar Pro
 
80-  
     
     
     
     
     
RA      
.net     , ,

06.03.2004, 03.04.2014 , ZaG

| | gtp | | | | | | |

. . . .