...

 

, , ,

 

-

 

Spur 1-5

E||--3-----------------|--3--------0-2----------|--0---------------------|

B||-----------------3--|-------3----------0--0--|-------3---1-3----------|

G||--------------------|------------------------|------------------0--0--|

D||--0-----------------|------------------------|------------------------|

A||--------------------|-------------2----2-----|--3----3-----2----2-----|

E||--------------------|--3----3----------------|------------------------|

 

 

------------------------|--0-----2--3--5----------|--7----5---3-5----2-----|

----------0--1----1--3--|----------------------3--|---------------------3--|

--2----2----------------|-----0-------------------|------------------------|

------------------------|--------4--2-------4-----|------------------------|

--0----0----------------|--------------0----------|-------------5----------|

-------------3----3-----|--3----------------------|--3----7----------------|

 

 

--3----2---0-2----------|--0---------------------|--3----2---0----------|

------------------0--0--|-------3--1--3----------|-------------3--------|

------------------------|------------------0--0--|----------------------|

------------------------|------------------------|-------------0--------|

-------------2----2-----|--3----0-----2----2-----|--0----0--------------|

--0----3----------------|------------------------|----------------------|

 

 

--7--------5--3--2--3--|--5---------------------|--3--------2--0-----0--|

-----------------------|---------3--3-----------|-----------------3-----|

--------------0-----0--|------------------0--2--|-----------------------|

-----------7-----4-----|--7------0--0--4--------|-----------4--2--0--2--|

-----------------------|------------------------|-----------------------|

--3--------------------|------------------------|--0--------------------|

 

 

--2---------------------|--3----0----2-3----0----2-|--3----0--3--3-----------|

---------0--0-----------|--------------------------|-------------------------|

------------------------|--------------------------|-------------------------|

--0------------0--2--4--|--------------2-------0---|-------------2--0--------|

---------2--2-----------|--------------------------|--3----------------3--2--|

------------------------|----------3---------------|----------3--------------|

 

 

--8----------7--5--3--5--|--7--------3--3-----------|--5----------3--2--0--2--|

-------------------------|--------------------------|-------------------------|

-------------------------|--------------------------|-------------------------|

-------------0-----------|--------------------------|-------------------------|

--0----------------------|-----------2--0-----------|-----------0-2-----------|

---------7-8-------------|--3--2--3--------3--2--0--|--2------3---------------|

 

 

--3--------0--0---------|--3----2--0-------------|--3----2---0-----------|

------------------------|-------------3----------|-------------3------3--|

------------------------|------------------0---0-|-----------------------|

--------------2----0----|------------------------|-------------0---------|

-----------2------------|--3----0-----2----2-----|--0----0---0-----------|

--0--2--3---------------|------------------------|-----------------------|

 

 

--3--------0-2----------|--0---------------------|------------------------|

-------3----------0--0--|-------3---1-3----------|----------0--1----1--3--|

------------------------|------------------0--0--|--2----2----------------|

------------------------|------------------------|------------------------|

-------------2----2-----|--3----3-----2----2-----|--0----0----------------|

--3----3----------------|------------------------|-------------3----3-----|

 

 

--0-----2--3--5----------|--7----5---3-5----2-----|--3----2---0-2----------|

----------------------3--|---------------------3--|------------------0--0--|

-----0-------------------|------------------------|------------------------|

--------4--2-------4-----|------------------------|------------------------|

--------------0----------|-------------5----------|-------------2----2-----|

--3----------------------|--3----7----------------|--0----3----------------|

 

 

--0---------------------|--3----2---0----------|--7--------5--3--2--3--|

-------3--1--3----------|-------------3--------|-----------------------|

------------------0--0--|----------------------|--------------0-----0--|

------------------------|-------------0--------|-----------7-----4-----|

--3----0-----2----2-----|--0----0--------------|-----------------------|

------------------------|----------------------|--3--------------------|

 

 

--5---------------------|--3--------2--0-----0--|--2---------------------|

---------3--3-----------|-----------------3-----|---------0--0-----------|

------------------0--2--|-----------------------|------------------------|

--7------0--0--4--------|-----------4--2--0--2--|--0------------0--2--4--|

------------------------|-----------------------|---------2--2-----------|

------------------------|--0--------------------|------------------------|

 

 

--3----0----2-3----0----2-|--3----0--3--3-----------|--8----------7--5--3--5--|

--------------------------|-------------------------|-------------------------|

--------------------------|-------------------------|-------------------------|

--------------2-------0---|-------------2--0--------|-------------0-----------|

--------------------------|--3----------------3--2--|--0----------------------|

----------3---------------|----------3--------------|---------7-8-------------|

 

 

--7--------3--3-----------|--5----------3--2--0--2--|--3--------0--0---------|

--------------------------|-------------------------|------------------------|

--------------------------|-------------------------|------------------------|

--------------------------|-------------------------|--------------2----0----|

-----------2--0-----------|-----------0-2-----------|-----------2------------|

--3--2--3--------3--2--0--|--2------3---------------|--0--2--3---------------|

 

 

--3----2--0-------------|-----------0----2----|--3----------------||

-------------3----------|--3------------------|-------------------||

------------------0---0-|---------------------|-------------------||

------------------------|---------------------|-------------------||

--3----0-----2----2-----|--0------------------|-------------------||

------------------------|---------------------|--3----------------||

 

 

    

 
Internet Map 
 
 
 
...
 

Guitar Pro
 
80-  
     
     
     
     
     
RA      
.net     , ,

06.03.2004, 03.04.2014 , ZaG

| | gtp | | | | | | |

. . . .