...

 

, , ,

 

- py.

 

C Em F C

py py

Dm Dm Dm G

y.

C G Am Em

py p

F C D G

, y .

 

p:

C G Am Em

,

F

py p .

F G C Dm E Am

p -- p

F C D G

H py y .

 

p(?) ,

y p,

H p p,

H py .

 

p.

 

p y

py p.

py

y p.

 

^ ^ ^

e|----------------------------------1------------3-

h|---1*----0*----------1-----1------1--(0)-1-0-1-3-

g|-0-0-0-2-0-----2*-0--0*----3------2---0*-2*----4-

d|---2-----2-2-2-3---3-2-----2------3*-3---3-----5-

a|---3-----2-----3-----3-3-3-0*-0-2-3------3-----5-

e|-----------------------------------------------3-

C Em F C D F F G

 

^ ^ ^ ^

e|---0*--------(0)----0-----------------------------

h|---1-3-1-3*---1*-0--0*----1-----1------1*-0-------

g|-0-0-----4-2--2---2-0-----2*-0--0-----------2-4---

d|---2-----5--3-2-----2-2-2-3---3-2-------------5---

a|---3-----5----0-----2-----3-----3*-3-3-3------5---

e|--------------------------------------------------

C G Am Em F C F G

 

p:

 

^ ^ ^ ^ ^

e|--0*------------------------------------------1*-

h|--1-3-1-01-3*----1*-0-----0*----1*-01*-01*-01-1--

g|--0--------0-0-0-2---2-02-0-----2-2-2-2-2-----2--

d|--2-----------------------2-2-2-3---3---3-----3--

a|--3--------2-----0--------------3---3---3-----3--

e|-(0)-----------------------------------------(1)-

C (Am?) Em7 Am Em F - - - - - - F

 

^

e|-1*-0-----0*-----------------------------------

h|-3---3-13-1-1-1-3*-1-0--0-1*----1*-0--1--------

g|-2--------2-----2------2--2-2-2-2---2-0*-------

d|-0--------------0---------------3-----2--------

a|----------0---------------0-----3-----3-3-3----

e|-----------------------------------------------

Dm Am Dm Am F

 

p: :

^

e|-1*-0--3-- e|-----------

h|-2---2-3-- h|------0-1*-

g|-------4-- g|-0*-2*--0--

d|-3-----5-- d|-2--3---2--

a|-------5*- a|-3--3---3--

e|-------5-- e|-----------

F G C F C

 

p: p - :)

 

    

 
Internet Map 
 
 
 
...
 

Guitar Pro
 
80-  
     
     
     
     
     
RA      
.net     , ,

06.03.2004, 03.04.2014 , ZaG

| | gtp | | | | | | |

. . . .