...

 

, , ,

 

- - /

 

 .

 

E||--------------------------|-----------------0--5--7--|

B||-----1--1-----------------|-----1--1-----------------|

G||-----2--2-----------------|-----2--2-----------------|

D||-----2--2-----------2-----|-----2--2-----------------|

A||--0--------0--------------|--0--------0--------------|

E||--------------0--0-----0--|--------------0-----------|

 

 

--8h-7--7h-5--5h-4--2h-4--|--5--------------0--1--0--|

--------------------------|-----5--5-----------------|

--------------------------|-----5--5-----------------|

--------------------------|--------------------------|

--0-----------------------|--0-----------0-----------|

--------------0-----------|-----------0--------------|

 

 

-----------------5--7--5--|--4--------------0--5--7--|

--3-----------------------|-----3--3-----------------|

-----2--2-----------------|-----4--4-----------------|

--0--3--3-----0-----------|--------------------------|

-----------0--------------|-----------2--------------|

--------------------------|--0-----------0-----------|

 

 

--8h-7--7h-5--5h-4--2h-4--|--5--------------5--7--8--|

--------------------------|-----5--5-----------------|

--------------------------|-----5--5-----------------|

--------------------------|--------------------------|

--0-----------------------|--0-----------0-----------|

--------------0-----------|-----------0--------------|

 

 

--7-------------------------|--7------------------0--|

--------10--------------10--|-----5------------------|

-----8------8--------8------|------------------------|

---------------9------------|--------6---------------|

----------------------------|-----------7------------|

--7---------------7---------|--0-----------0---------|

 

 

--0--------0--0--0-----0--|--3--------------------1--|

--------1-----------4-----|--------0-----------3-----|

-----2--------------------|-----2-----2-----2--------|

--------------------------|--0-----------3-----------|

--0-----------3-----------|--------------------------|

--------------------------|--------------------------|

 

 

--0--------1--0-----------|-----------------------0--|

--------0--------------0--|--0--1--------------------|

-----2--------------2-----|--------2-----------2-----|

-----------------0--------|-----------2-----2--------|

--2-----------------------|--0-----------3-----------|

--------------0-----------|--------------------------|

 

 

--0--------0--0--0-----0--|--5--------------------5--|

--------1-----------4-----|--------6-----------6-----|

-----2--------------------|-----5-----5-----5--------|

--------------------------|--0-----------------------|

--0-----------3-----------|--------------8-----------|

--------------------------|--------------------------|

 

 

--5--------3--3-----------|--1--0-----------------0--|

--------3--------------3--|--------1-----------1-----|

-----5--------------4-----|-----------0-----0--------|

-----------------5--------|--------------2-----------|

--------------------------|--3-----------------------|

--3-----------3-----------|--------------------------|

 

 

--0--------0-----------5--|--5--------5-----------5--|

-----3--3-----3--1--------|-----8--8-----8--6--------|

--------1-----------2-----|--------5-----------7-----|

--------2-----------2-----|--0-----7-----0-----7-----|

--2-----------0-----------|--------------------------|

--------------------------|--------------------------|

 

 

--8--------8--7h-5--3--5--|--0--------------0-----0--|

--------6-----------------|--------0-----------4-----|

-----7--------0-----------|-----0-----0--------------|

--5-----------------------|--------------------------|

--------------------------|--3-----------2-----------|

--------------------------|--------------------------|

 

 

--5-----------0-----------|-----------0--|--1-----------------5-----|

--------------------3-----|-----2--3-----|--------2-----1--------6--|

-----------5-----2-----2--|--------------|-----2-----2-----2--------|

--------7-----0-----------|--0-----------|--0-----------------------|

-----7--------------------|--------------|--------------------------|

--5-----------------------|--------------|--------------------------|

 

 

--12--------------10----------7--|--8--------8--7h-5--0-----|

----------10--------------10-----|--------5--------------3--|

------10------10------10---------|-----5--------------------|

--0------------------------------|--------------------------|

---------------------------------|--0-----------------------|

---------------------------------|--------------------------|

 

 

--------------------------|--1-----------------------|

--1-----------------0--1--|--------1-----------1-----|

--------2--------2--------|-----2-----2-----2-----2--|

-----3-----3--------------|--0-----------3-----------|

--------------3-----------|--------------------------|

--1-----------------------|--------------------------|

 

 

-----------------0--5--7--|--8h-7--7h-5--5h-4--2h-4--|

--0-----------------------|--------------------------|

--------2-----1-----------|--------------------------|

-----4-----4--2-----------|--------------------------|

--------------------------|--0-----------------------|

--0-----------0-----------|--------------0-----------|

 

 

--5--------------0--1--0--|-----------------5--7--5--|

-----5--5-----------------|--3-----------------------|

-----5--5-----------------|-----2--2-----------------|

--------------------------|--0--3--3-----0-----------|

--0-----------0-----------|-----------0--------------|

-----------0--------------|--------------------------|

 

 

--4--------------0--5--7--|--8h-7--7h-5--5h-4--2h-4--|

-----3--3-----------------|--------------------------|

-----4--4-----------------|--------------------------|

--------------------------|--------------------------|

-----------2--------------|--0-----------------------|

--0-----------0-----------|--------------0-----------|

 

 

--5--------------5--7--8--|--7--------------10--8-----|--5----------------||

-----5--5-----------------|--------7-----9---------9--|-------------------||

-----5--5-----------------|-----7-----7---------9-----|--5----------------||

--------------------------|---------------------------|-------------------||

--0-----------0-----------|---------------------------|--0----------------||

-----------0--------------|--0------------------0-----|-------------------||

 

 

    

 
Internet Map 
 
 
 
...
 

Guitar Pro
 
80-  
     
     
     
     
     
RA      
.net     , ,

06.03.2004, 03.04.2014 , ZaG

| | gtp | | | | | | |

. . . .