...

 

, , ,

 

-

 

:

Em F#7 H7 Em F#7 H7

|----0-----0-|----2--2----|----0-----0-|----2--2----|

|----0-----0-|----5--4----|----0-----0-|----5--4----|

|----0-----0-|----3--2----|----0-----0-|----3--2----|

|------------|------------|------------|------------|

|------------|-------20---|------------|-------20---|

|-0-----3----|-2-------32-|-0-----3----|-2-------32-|

 

...

Em Am D7 G

|----0-----0-|----0-----2-|----3-----3-|

|----0-----0-|----1-----1-|----3-----3-|

|----0-----0-|----2-----2-|----4-----4-|

|------------|-------0----|------------|

|------------|-0----------|------------|

|-0-----3----|------------|-3-----3----|

 

... >

Am Em F#7 H7 Em F#7 H7

|----0-----0-|----0-----0-|----2-----2-|----0---320-|--2-----2---|

|----1-----1-|----0-----0-|----5-----4-|----0--0----|---5-----4--|

|----2-----2-|----0-----0-|----3-----2-|----0-------|-3--3--2--2-|

|------------|------------|------------|------------|------------|

|-0-----3----|------------|-------2----|------------|-------2----|

|------------|-0-----3----|-2----------|-0-----3----|-2----------|

 

Em Am D7 G

|----0-----0-|----0-----2-|----3-----3-|

|----0-----0-|----1-----1-|----3-----3-|

|----0-----0-|----2-----2-|----4-----4-|

|------------|-------0----|------------|

|------------|-0----------|------------|

|-0-----3----|------------|-3-----3----|

 

Am Em F#7 H7 Em F#7 H7

|----0-----0-|----0-----0-|----2-----2-|----0--7----|-6-----5----|

|----1-----1-|----0-----0-|----5-----4-|----0-----0-|----5-----4-|

|----2-----2-|----0-----0-|----3-----2-|----0--0--0-|----6-----2-|

|------------|------------|------------|------------|-4----------|

|-0-----3----|------------|-------2----|------------|-------2----|

|------------|-0-----3----|-2----------|-0----------|------------|

 

...

E7 E7 Am

|----0-----0-|----0-----0-|----0-----0-------|

|----3-----3-|----3-----3-|----1-----1---10--|

|----1-----1-|----1-----4-|----2-----2-----2-|

|------------|------------|------------------|

|-------2----|------------|-0-----3-----0----|

|-0----------|-0-----4----|------------------|

 

... - -

D7 D7 G Am F#7 H7

|----2-----2-|----2-----2-|----3-----0-|----2-----2-|

|----1-----1-|----1-----1-|----3-----1-|----5-----4-|

|----2-----2-|----2-----2-|----4-----2-|----3-----2-|

|-0----------|-0----------|------------|------------|

|-------0----|-------0----|-------0----|-------2----|

|------------|------------|-3----------|-2----------|

 

Em Am D7 G

|----0-----0-|----0-----2-|----3-----3-|

|----0-----0-|----1-----1-|----3-----3-|

|----0-----0-|----2-----2-|----4-----4-|

|------------|-------0----|------------|

|------------|-0----------|------------|

|-0-----3----|------------|-3-----3----|

 

Am Em F#7 H7 Em F#7 H7

|----0-----0-|----0-----0-|----2-----2-|----0-----0-|----2--2----|

|----1-----1-|----0-----0-|----5-----4-|----0-----0-|----5--4----|

|----2-----2-|----0-----0-|----3-----2-|----0-----0-|----3--2----|

|------------|------------|------------|------------|------------|

|-0-----3----|------------|-------2----|------------|-------20---|

|------------|-0-----3----|-2----------|-0-----3----|-2-------32-|

 

H :

Em

|----0-----0-|

|----0-----0-|

|----0-----0-|

|------------|

|--------2---|

|-0-----3--0-|

    

 
Internet Map 
 
 
 
...
 

Guitar Pro
 
80-  
     
     
     
     
     
RA      
.net     , ,

06.03.2004, 03.04.2014 , ZaG

| | gtp | | | | | | |

. . . .