аккорды, табы, тексты, песни

 

Madonna - Youll See


Intro

G|-10-12-10-10-|

Verse (Начинается с вокалом)

(You Thing That I Can?t Live...)
   Fm Dm# E# E#
E|-1--6---8---8--------|
B|-1--6---9---9--------|
G|-1--8---10--10--- x2-|
D|-3--8---10--10-------|
A|-3--6---8---8--------|
E|-1--6---8---8--------|

(...You Think A Have Nothing...)

   Cm# Dm# Cm E#
E|-4---6---3---8--|
B|-4---6---3---9--|
G|-6---8---5---10-|
D|-6---8---5---10-|
A|-4---6---3---8--|
E|-4---6---3---8--|

(...you?ll See, some How...)

   Fm Cm# Cm#
E|--1--4--3-|
B|--1--4--3-|
G|--1--6--5-|
D|--3--6--5-|
A|--3--4--3-|
E|--1--4--3-|

Chorus (part 1)

   Fm Cm# Dm# E# | Cm# Dm# Cm
E|--1-4---6---8-----4---6---3-|
B|--1-4---6---9-----4---6---3-|
G|--1-6---8---10----6---8---5-|
D|--3-6---8---10----6---8---5-|
A|--3-4---6---8-----4---6---3-|
E|--1-4---6---8-----4---6---3-|

Chorus (Continue)

(...All On My Own..)

   Fm Cm# Dm# E# | Cm# Dm# C
E|--1--4--6---8-----4--6---8--|
B|--1--4--6---9-----4--6---8--|
G|--1--6--8---10----6--8---9--|
D|--3--6--8---10----6--8---10-|
A|--3--4--6---8-----4--6---10-|
E|--1--4--6---8-----4--6---8--|

    

 
мы на карте интернета
Internet Map 
 
таблица аккордов
 
Партнеры
 
 

Песни и аккорды Guitar Pro табы Статьи и обзоры Форум
русские песни русские табы уроки игры учимся играть
иностанные песни иностранные табы видео уроки компьютер и гитара
классика классические табы статьи техника игры
песни из фильмов блюз и джаз табы фото о гитаре в целом
военные песни экстрим табы видео гитарное оборудование
прикольные песни хард рок табы ссылки гитарная мастерская
советские песни фламенко табы   творчество
хиты 80-ых саунд треки   ищу песню
народные песни      
шансон      
романсы      
табы для новичков      
разные      
песенник RA      
инженеров.netДомашняя страницаНезависимый морской сайтАккорды для всехПриколы, юмор, анекдоты

создан 06.03.2004, обновлен 03.04.2014 , администрация ZaG

русские песни | иностранные песни | табулатуры gtp | софт | таблица аккордов | видео | обратная связь | ссылки | форум | начало

все тексты песен являются собственностью их автора. песени взяты из открытых источников. на сайте размещены с целью ознакомления. по требованию автора его песня будет удалена.

при использовании материалов сайта ссылка на сайт обязательна
по всем вопросам пишите на электропочту