...

 

, , ,

 

Intro (guitar)

E|-------12-15---17-19---17-15------|--15----7----6----5-|--3-|

B|--15---------------------------17-|--------------------|--0-|

G|----------------------------------|--------7----6----5-|----|

D|----------------------------------|--------------------|----|

A|----------------------------------|--------------------|----|

E|----------------------------------|--------------------|----|

 

(verse 1)

G

,

Hm

C D7

.

 

-

,

.

 

(chorus)

 

C D7 G Em

,

C D7 G E7

,

Am D7 G Em

, ,

C D7 G

.

 

 

(verse 2)

 

,

.

 

,

, .

 

(chorus)

 

(verse 3)

 

,

.

 

, ,

- ?

 

(chorus)

 

 

Melody version (playing like solo-part)

 

- - -- -

E|---------------------|------------0---------|----------------|

B|-------3--------3----|--0----3---------3----|--0----3------3-|

G|--4------------------|----------------------|----------------|

D|---------------------|----------------------|----------------|

A|---------------------|----------------------|----------------|

E|---------------------|----------------------|----------------|

 

- - - - -

E|------------0---------|-----------------|------0----0--------|

B|--0----3---------3----|--0----3------3--|-3--------------3---|

G|----------------------|-----------------|--------------------|

D|----------------------|-----------------|--------------------|

A|----------------------|-----------------|--------------------|

E|----------------------|-----------------|--------------------|

 

-

E|-------------------|------------------|---------------------|

B|-------------------|------------------|--0----3--------3----|

G|--2----------------|------------------|---------------------|

D|-------------------|------------------|---------------------|

A|-------------------|------------------|---------------------|

E|-------------------|------------------|---------------------|

 

- - - - -

E|------------0---------|-------------------|-----------0------|

B|--0----3---------3----|--0----3--------3--|-0----3---------3-|

G|----------------------|-------------------|------------------|

D|----------------------|-------------------|------------------|

A|----------------------|-------------------|------------------|

E|----------------------|-------------------|------------------|

 

- - - -

E|---------------------|-------0----0---------|----------------|

B|--0----3--------3----|--3--------------3----|----------------|

G|---------------------|----------------------|--2-------------|

D|---------------------|----------------------|----------------|

A|---------------------|----------------------|----------------|

E|---------------------|----------------------|----------------|

 

- -

E|------------------|---------------0----|---------------2----|

B|------------------|--1-----------------|--3-----------------|

G|------------------|--------------------|--------------------|

D|------------------|--------------------|--------------------|

A|------------------|--------------------|--------------------|

E|------------------|--------------------|--------------------|

 

- - - -

E|--3----3----3----2----|--0----------------|--0------------3--|

B|----------------------|-------------------|------------------|

G|----------------------|-------------------|------------------|

D|----------------------|-------------------|------------------|

A|----------------------|-------------------|------------------|

E|----------------------|-------------------|------------------|

 

- -

E|--2----2----0---------|-------------------|--0---------------|

B|-----------------3----|--3----------------|------------------|

G|----------------------|-------------------|------------------|

D|----------------------|-------------------|------------------|

A|----------------------|-------------------|------------------|

E|----------------------|-------------------|------------------|

 

- - - -

E|--------------0-|------------0----2---|--3----3----3----2----|

B|-1--------------|--3----3-------------|----------------------|

G|----------------|---------------------|----------------------|

D|----------------|---------------------|----------------------|

A|----------------|---------------------|----------------------|

E|----------------|---------------------|----------------------|

 

- - -

E|--0--------------|--3------------0----|-------0--------------|

B|-----------------|--------------------|--3-------------------|

G|-----------------|--------------------|------------3----2----|

D|-----------------|--------------------|----------------------|

A|-----------------|--------------------|----------------------|

E|-----------------|--------------------|----------------------|

 

E|-------------------|

B|-------------------|

G|--0----------------|

D|-------------------|

A|-------------------|

E|-------------------|

 

Over solo and verse playing some little riffs.

They taken from G-maj pentatonic.

    

 
Internet Map 
 
 
 
...
 

Guitar Pro
 
80-  
     
     
     
     
     
RA      
.net     , ,

06.03.2004, 03.04.2014 , ZaG

| | gtp | | | | | | |

. . . .